RETOUCHES À UN ROMAN D'AMOUR DE QUATRE SOUS


Paroles & Musique : Georges Brassens (arrangement Maxime LeForestier)


Intro : Mim Do Ré Mim (4 fois)

Mim         Do                 Ré Sim                  Mim      Ré      Mim Ré
Madame, même à quatre sous, Notre vieux roman d'amour sou-
Sol            Do                   Ré   Sol      Do                Ré Mim
Ffrirait certes quelque mévente. Il fut minable. Permettez
               Do         Ré Sim     Mim Ré        Mim
Que je farde la vérité, La réinvente, La réinvente.

Mim         Do                 Ré Sim                Mim   Ré          Mim Ré
On se rencontra dans un car, Nous menant en triomphe au quart,
Sol         Do              Ré    Sol          Do                  Ré Mim
Une nuit de rafle à Pigalle. Je préfère affirmer, sang bleu !
                       Do             Ré Sim           Mim Ré               Mim
Que l'on nous présenta chez le, Prince de Galles, Prince de Galles.

Mim Do Ré Mim (2 fois)

Mim         Do            Ré Sim                  Mim      Ré      Mim Ré
Oublions l'hôtel mal famé, L'hôtel borgne où l'on s'est aimés.
Sol            Do                  Ré    Sol        Do                     Ré Mim
Taisons-le, j'aurais bonne mine. Il me paraît plus transcendant
          Do                Ré Sim          Mim Ré            Mim
De situer nos ébats dans, Une chaumine, Une chaumine.

Mim         Do               Ré Sim                  Mim   Ré      Mim Ré
Les anges volèrent bien bas, Leurs soupirs ne passèrent pas
Sol           Do                   Ré   Sol            Do                Ré Mim
L'entresol, le rez-de-chaussée. Forçons la note et rehaussons
                Do                Ré Sim           Mim Ré        Mim
Très au-delà du mur du son, Leur odyssée, Leur odyssée.

Mim Do Ré Mim (2 fois)

Mim            Do              Ré Sim             Mim Ré       Mim Ré
Ne laissons pas, quelle pitié ! Notre lune de miel quartier
Sol            Do         Ré    Sol               Do         Ré Mim
De la zone. Je préconise, Qu'on l'ait vécue en Italie,
                    Do             Ré Sim         Mim Ré           Mim
Sous le beau ciel de Napoli, Ou de Venise, Ou de Venise.

Mim          Do               Ré Sim             Mim Ré        Mim Ré
Un jour votre cœur se lassa, Et vous partîtes, passons ça
Sol                Do                 Ré    Sol        Do                  Ré Mim
Sous silence, en claquant la porte. Marguerite, soyons décents,
                  Do                   Ré Sim            Mim Ré                Mim
Racontons plutôt qu'en toussant, Vous êtes morte, Vous êtes morte.

Mim Do Ré Mim (2 fois)

Mim             Do                       Ré Sim            Mim   Ré        Mim Ré
Deux années après, montre en main, Je me consolais, c'est humain,
Sol       Do                 Ré       Sol            Do              Ré Mim
Avec une de vos semblables. Je joue, ça fait un effet bœuf,
                  Do                      Ré Sim      Mim Ré          Mim
Le veuf toujours en deuil, le veuf, Inconsolable, Inconsolable.

Mim         Do                 Ré Sim          Mim    Ré     Mim Ré
C'est la revanche du vaincu, C'est la revanche du cocu,
Sol         Do               Ré     Sol                Do                 Ré Mim
D'agir ainsi dès qu'il évoque, Son histoire. Autant qu'il le peut,
            Do                    Ré Sim            Mim Ré                Mim
Il tâche de la rendre un peu, Moins équivoque, Moins équivoque.

Mim Do Ré Mim (2 fois)

Pour finir, harmoniques sur les cordes Si et Mi aiguës, 12ème case

 

  transposer la grille

 

     Em            C         D   Em          C         D   Em
|--------||----0---------|-0---------|---0---------|-0----------|
|--------||o-0---------1-|-----------|-0---------1-|------------|
|--------||----------0---|-----2-----|---------0---|-----2------|
|--------||--------------|---0---2---|-------------|---0---2----|
|--------||o-----2-3-----|-----------|-----2-3-----|------------|
|----0---||--------------|-----------|-------------|------------|


        C         D    Bm         Em  D
|---0---------|-0----2----|-----2---0---|
|-0---------1-|------3----|---3-----0---|
|---------0---|------2----|-4-------0---|
|-------------|---0-------|-------2---0-|
|-----2-3-----|--------2--|-------------|
|-------------|-----------|-------------|


    Em    D       G       C         D
|-2-----------|---------3---|-----0----------|
|-3-----0-----|-3-----0-----|---1-------3----|
|-2---0-----2-|-----0-------|-0-------2------|
|-------------|-------------|-------0--------|
|-------------|-----------3-|----------------|
|---0-----2---|---3---------|----------------|


              G         C         D     Em
|-2h3p2-----2---|-----3-------|-0----------|
|-------3-------|---0-------1-|-------3----|
|---------2-----|-0-------0---|-----2------|
|---------------|-------------|---0--------|
|---------------|-------3-----|------------|
|-------------3-|-------------|---------0--|


        C         D    Bm           Em
|---0---------|-0----2----|-----2---------|
|-0---------1-|------3----|---3---3-------|
|---------0---|------2----|-4---------0---|
|-------------|---0-------|---------2-----|
|-----2-3-----|--------2--|---------------|
|-------------|-----------|---------------|


    D           Em
|---------2---|---------0---|-----------||-<12>----|
|-0-----3---3-|-------0---0-|----------o||-<12>----|
|-----2-------|-----0-------|-0---------||---------|
|---0---------|-2-4---------|---4-2-----||---------|
|-------------|-------------|----------o||---------|
|-------------|-------------|-----------||---------|

Tablature au format GIF
Tablature au format PTB (Power Tab Editor)