LE DRAPEAU NOIR FLOTTE SUR LA MARMITE


Musique : Georges Brassens
Transcription de René (thejack16)
Valse (1 mesure = 3 temps)


         Sim                  Sim                  Mim                 Fa#7                   Sim                 Sim
|--------------------|--------------------|--------------------|--------------------|--------------------|--------------------|
|--------------------|--------------------|--------------------|-------------3---2--|--------------------|--------------------|
|--4-----------------|--------------------|--------------------|--------------------|-4------------------|--------------------|
|------4---4---4---4-|-------4---2----4---|---5----------------|-4------------------|-------4---4---4--4-|-------4---2---4----|
|--------------------|--------------------|--------------------|--------------------|--------------------|--------------------|
|--------------------|--------------------|--------------------|--------------------|--------------------|--------------------|
 

         Mim                  Fa#7                 Sim                  Sim                  La                   La
|--------------------|--------------------|--------------------|--------------------|--------------------|--------------------|
|--------------------|----------------3--2|--------------------|--------------------|--------------------|--------------------|
|--------------------|--------------------|--4-----------------|--------------------|--------------------|--------------------|
|--5-----------------|-4------------------|--------4----4----4-|----4----------4----|---2--------------- |--------------------|
|--------------------|--------------------|--------------------|--------2--5--------|--------------------|--------------------|
|--------------------|--------------------|--------------------|--------------------|--------------------|--------------------|
 

        Sol7                  Fa#7                 Sim                  Fa#7                 Sim                   Sim
|--------------------|--------------------|--------------------|--------------------|--------------------|--------------------|
|--------------------|--------------------|--------------------|--------------------|--------------------|--------------------|
|--------------------|--------------------|--------------------|---------1-----3----|--4-----------------|--------------------|
|--------------------|--------------------|--------------------|----4---------------|------4---4---4--4--|-------4---2----4--—|
|-----5-------5—-5---|-----4----5-----4---|-------2--2---------|--------------------|--------------------|--------------------|
|--------------------|--------------------|--------------------|--------------------|--------------------|--------------------|
 

         Mim                  Fa#7                 Sim                  Sim                  Mim                   Fa#7
|--------------------|--------------------|--------------------|--------------------|--------------------|--------------------|
|--------------------|----------3----2----|--------------------|--------------------|--------------------|---------------3—2--|
|--------------------|--------------------|-4------------------|--------------------|--------------------|--------------------|
|---5----------------|----4---------------|-------4---4---4--4-|-------4---2---4----|--5-----------------|-4------------------|
|--------------------|--------------------|--------------------|--------------------|--------------------|--------------------|
|--------------------|--------------------|--------------------|--------------------|--------------------|--------------------|
 

         Sim                  Sim                 Mim                   Mim                  Fa#7                 Fa#7
|--------------------|--------------------|--------------------|--------------------|--------------------|--------------------|
|--------------------|--------------------|--------------------|--------------------|--------------------|--------------------|
|-4------------------|--------------------|--------------------|--------------------|--------------------|---------3---1---3--|
|-----4---4---4---4--|---------------4----|---2----------------|--------------------|---4---4-—4----4----|----4---------------|
|--------------------|------2---5---------|--------------------|--------------------|--------------------|--------------------|
|--------------------|--------------------|--------------------|--------------------|--------------------|--------------------|
 

       Sim                    La                  Ré                    Ré                   Ré                   Ré
|--------------------|--------------------|--------------------|--------------------|--------------------|--------------------|
|--------------------|--------------------|--------------------|--------------------|--------------------|--------------------|
|--4-----------------|--------------------|--------------------|-----------------2--|--------------------|--------------------|
|--------------------|--------------------|---4---4---4—-4--4--|-------4----4-------|--------------------|--------------------|
|--------------------|----------2-----4---|--------------------|--------------------|--------------------|--------------------|
|--------------------|--5-----------------|--------------------|--------------------|--------------------|--------------------|
 

         Sol7                Fa#7                 Sim                   Sim                 Sim                   Sim
|--------------------|--------------------|--------------------|--------------------|--------------------|--------------------|
|--------------------|--------------------|--------------------|--------------------|--------------------|--------------------|
|---------2----------|--------------------|--------------------|--------------------|--------------------|--------------------|
|--5------------5----|--4------4--3--2----|--------------------|--------------------|--------------------|----2--------2------|
|--------------------|------------------5-|--2-----------------|--------------------|-5---------5---5----|---------5-------5--|
|--------------------|--------------------|--------------------|--------------------|--------------------|--------------------|
 

          La                  La                   Sol7                 Fa#7                 Sol7                 La
|--------------------|--------------------|--------------------|--------------------|--------------------|--------------------|
|--------------------|--------------------|--------------------|--------------------|--------------------|--------------------|
|--------------------|--------------------|--------------------|--------------------|--------------------|--------------------|
|--------------------|--------------------|--------------------|--------------------|--------------------|------------------2-|
|--4-----------------|--------------------|-5---2---5---2---5--|--4-----------------|--5--2--5---2---5---|-4--------2--4--5---|
|--------------------|--------------------|--------------------|-------2------------|------- ------------|-----5--------------|
 

         Ré                    Ré                   Ré                  Ré                  Sol7                  Fa#7
|--------------------|--------------------|--------------------|--------------------|--------------------|--------------------|
|--------------------|--------------------|--------------------|--------------------|--------------------|--------------------|
|--------------------|-----------------2--|----4-----2-------4-|----5---------------|---------2----------|--------------------|
|--4---4----4----4---|---4---4----4-------|--------------------|--------------------|-5--------------5---|--4------4--3---2---|
|--------------------|--------------------|--------------------|--------------------|--------------------|------------------5-|
|--------------------|--------------------|--------------------|--------------------|--------------------|--------------------|
 

          Sim                  Sim                 Sim                 Fa#7                  Sim                    Mi
|--------------------|--------------------|--------------------|--------------------|--------------------|--------------------|
|--------------------|--------------------|-----------------2--|--------------------|--------------------|--------------------|
|--------------------|--------------------|--4----3----4-------|--4-------3---------|--4-----------------|--------------------|
|--------------------|--------------------|--------------------|----------------4---|-------4----4----4--|---2----------------|
|--2-----------------|--------------------|--------------------|--------------------|--------------------|-----------2--------|
|--------------------|--------------------|--------------------|--------------------|--------------------|--------------------|
 

         Sol7                  La                   Ré                   Ré                  Sim                  Fa#7
|--------------------|--------------------|--------------------|--------------------|--------------------|--------------------|
|--------------------|--------------------|--------------------|--------------------|------------------2-|--------------------|
|--------------------|--------------------|--2---------2-------|--------------------|---4-----3----4-----|---4------3---------|
|--------------------|-2------------2-4-5-|-------4------------|--------------------|--------------------|----------------4---|
|----5---------5-2-5-|--------------------|--------------------|--------------------|--------------------|--------------------|
|--------------------|--------------------|--------------------|--------------------|--------------------|--------------------|
 

        Sim                   Ré                  Sim                  Fa#7                Sim
|--------------------|--------------------|--------------------|--------------------|--------------------|
|--3----2------------|--------------------|--------------------|--------------------|--------------------|
|------------4-----2-|--------------------|--------------------|--------------------|--4------------4--4-|
|--------------------|--4-----2-----------|--------------------|--4-----4-----4-----|--------------------|
|--------------------|--------------2-----|---5-----5------5---|--------------------|--------------------|
|--------------------|--------------------|--------------------|--------------------|--------------------|
 

Il y a en tout 4 couplets (je n’en ai fait qu’un) car le 2ème couplet a quelques différences, mais juste au niveau du solo (très peu vous verrez)

Cette musique ne comporte en vérité que 2 couplets différents c’est tout !

Écoutez bien le morceau et vous verrez à 2 Min 17 sec que le 3ème couplet qui démarre est en fait le début (c’est fLagrant quand on écoute car en fait on entend les mêmes respirations de tontons Georges aux mêmes endroits).

J’ai un doute pour les accords de « Ré », je ne pense pas qu’il ait 4 mesures, il y a bien un autre accord mais je ne l’ai pas trouvé, mais ça sonne quand même !

Pareil pour le solo il y a sûrement des notes mal placées mais en tous cas ce sont les bonnes, de toutes façons vous le sentirez en jouant le morceau.