DANS L'EAU DE LA CLAIRE FONTAINE


Paroles & Musique : Georges Brassens
Arrangement : Maxime Le Forestier



E||-----------------------|------------------------||------------------------|
B||--5----5-------5----5--|-----5----5-----5----5--||--------5-------5----5--|
G||--4----4-------4----4--|-----4----4-----4----4--||*-------4-------4----4--|
D||--5----5-------5----5--|-----5----5-----5----5--||*-------5-------5----5--|
A||--3--------------------|--3---------------------||---3--------------------|
E||------------3----------|-------------3----------||-------------3----------|



------------------------|-----------------------|------------------------|
-----5----5-----5----5--|-------5-------5----5--|-----5----5-----5----5--|
-----4----4-----4----4--|-------4-------4----4--|-----4----4-----4----4--|
-----5----5-----5----5--|-------5-------5----5--|-----5----5-----5----5--|
--3---------------------|--3--------------------|--3---------------------|
-------------3----------|------------3----------|-------------3----------|



-----------------------|-----------------------|------------------------|
-------5-------5----5--|-------8-------8-------|-----6----------6----6--|
-------4-------4----4--|-------7-------7-------|-----7----------7----7--|
-------5-------5----5--|-------6-------6----6--|----------6-------------|
--3--------------------|-----------------------|--7----------7----------|
------------3----------|--7---------7----------|------------------------|

  Dans l'eau de la claire fontaine



-------5---------------|-----------------------|-----------------------|
-------5-------5----5--|-------8-------8----8--|-------8-------8-------|
-------5-------5----5--|-------7-------7----7--|-------7-------7-------|
---------------5----5--|-------8-------8----8--|-------8-------8----8--|
--7--------------------|-----------------------|--8---------8----------|
------------5----------|--8---------8----------|-----------------------|

                          Elle se baignait toute nue



------------------------|-------5-------5----5--|-----5----5-----5----5--|
-----8----------8----8--|-------5-------5----5--|-----5----5-----5----5--|
-----7----------7----7--|-------5-------5----5--|-----5----5-----5----5--|
----------8----------8--|-----------------------|------------------------|
--7----------7----------|--8--------------------|--8---------------------|
------------------------|------------8----------|-------------8----------|

                                                   Une saute de vent soudaine



-----------------------|------------------------|-------5---------------|
-------8-------8-------|-----6----------6----6--|-------5-------5----5--|
-------7-------7-------|-----7----------7----7--|-------5-------5----5--|
-------6-------6----6--|----------6-------------|---------------5----5--|
-----------------------|--7----------7----------|------------7----------|
--7---------7----------|------------------------|--5--------------------|

                                                            Jeta ses

|---1 à 5
|                                                                         6x
-------3-------3-------|------------------------|-------------------------||
-------3-------3-------|-----1----------1-------|-----4----------3----3---||
-------1-------1-------|-----0----------0-------|-----3----------2----2--*||
--------------------2--|----------2----------0--|----------0-------------*||
--2---------2----------|--0----------0----------|--3----------2-----------||
-----------------------|------------------------|-------------------------||

  habits dans les nues


|---6
|
-------3---------3----|----------------------|-----------3--------|
-------3---------3----|-------1----1----1----|-----------3--------|
-------1---------1----|-------0----0----0----|-----------1--------|
----------------------|-------2----2----2----|--------------------|
--2---------2---------|--0-------------------|--2-----------------|
----------------------|----------------------|--------------------|

  Dieu qu'il fit du vent                        Qu'il    fit



-----------------------|--------------------------|--0----------------||
--------------------2--|-----------------2--------|--2----------------||
-----------------1-----|--1-----------1-----1-----|--1----------------||
--0-----------2--------|-----2-----2-----------2--|--2----------------||
-----------0-----------|--------0-----------------|--0----------------||
-----------------------|--------------------------|-------------------||

  du       vent...

 

Dans l'eau de la claire fontaine, Elle se baignait toute nue
Une saute de vent soudaine, Jeta ses habits dans les nues

En détresse, elle me fit signe, Pour la vêtir, d'aller chercher
Des monceaux de feuilles de vigne, Fleurs de lis ou fleurs d'oranger

Avec des pétales de roses, Un bout de corsage lui fis
La belle n'était pas bien grosse, Une seule rose a suffi

Avec le pampre de la vigne, Un bout de cotillon lui fis
Mais la belle était si petite, Qu'une seule feuille a suffi

Elle me tendit ses bras, ses lèvres, Comme pour me remercier
Je les pris avec tant de fièvre, Qu'elle fut toute déshabillée

Le jeu dut plaire à l'ingénue, Car, à la fontaine souvent
Elle s'alla baigner toute nue, En priant Dieu qu'il fit du vent
Qu'il fit du vent...

charger la tablature au format GP3       charger la tablature au format GIF